ISO-10303-21;
HEADER;
/* Generated by software containing ST-Developer
 * from STEP Tools, Inc. (www.steptools.com) 
 */

FILE_DESCRIPTION(
/* description */ ('This is a sample STEP configuration'),
/* implementation_level */ '2;1');

FILE_NAME(
/* name */ '610-3257xxxxxxxxx SIMPLE.ipt_Rev_00.stp',
/* time_stamp */ '2024-06-20T11:18:59+02:00',
/* author */ ('powerJobs'),
/* organization */ ('coolOrange'),
/* preprocessor_version */ 'ST-DEVELOPER v19.2',
/* originating_system */ 'Autodesk Inventor 2023',
/* authorisation */ '');

FILE_SCHEMA (('AUTOMOTIVE_DESIGN { 1 0 10303 214 3 1 1 }'));
ENDSEC;

DATA;
#10=MECHANICAL_DESIGN_GEOMETRIC_PRESENTATION_REPRESENTATION('',(#13),#588);
#11=SHAPE_REPRESENTATION_RELATIONSHIP('SRR','None',#595,#12);
#12=ADVANCED_BREP_SHAPE_REPRESENTATION('',(#14),#587);
#13=STYLED_ITEM('',(#604),#14);
#14=MANIFOLD_SOLID_BREP('Volumenk\X\F6rper1',#359);
#15=FACE_OUTER_BOUND('',#33,.T.);
#16=FACE_OUTER_BOUND('',#34,.T.);
#17=FACE_OUTER_BOUND('',#35,.T.);
#18=FACE_OUTER_BOUND('',#36,.T.);
#19=FACE_OUTER_BOUND('',#37,.T.);
#20=FACE_OUTER_BOUND('',#38,.T.);
#21=FACE_OUTER_BOUND('',#39,.T.);
#22=FACE_OUTER_BOUND('',#40,.T.);
#23=FACE_OUTER_BOUND('',#41,.T.);
#24=FACE_OUTER_BOUND('',#42,.T.);
#25=FACE_OUTER_BOUND('',#43,.T.);
#26=FACE_OUTER_BOUND('',#44,.T.);
#27=FACE_OUTER_BOUND('',#45,.T.);
#28=FACE_OUTER_BOUND('',#46,.T.);
#29=FACE_OUTER_BOUND('',#47,.T.);
#30=FACE_OUTER_BOUND('',#48,.T.);
#31=FACE_OUTER_BOUND('',#49,.T.);
#32=FACE_OUTER_BOUND('',#50,.T.);
#33=EDGE_LOOP('',(#227,#228,#229,#230));
#34=EDGE_LOOP('',(#231,#232,#233,#234));
#35=EDGE_LOOP('',(#235,#236,#237,#238));
#36=EDGE_LOOP('',(#239,#240,#241,#242));
#37=EDGE_LOOP('',(#243,#244,#245,#246,#247,#248,#249,#250));
#38=EDGE_LOOP('',(#251,#252,#253,#254));
#39=EDGE_LOOP('',(#255,#256,#257,#258));
#40=EDGE_LOOP('',(#259,#260,#261,#262));
#41=EDGE_LOOP('',(#263,#264,#265,#266));
#42=EDGE_LOOP('',(#267,#268,#269,#270));
#43=EDGE_LOOP('',(#271,#272,#273,#274,#275,#276,#277,#278));
#44=EDGE_LOOP('',(#279,#280,#281,#282));
#45=EDGE_LOOP('',(#283,#284,#285,#286,#287,#288,#289,#290));
#46=EDGE_LOOP('',(#291,#292,#293,#294));
#47=EDGE_LOOP('',(#295,#296,#297,#298,#299,#300,#301,#302,#303,#304,#305,
#306));
#48=EDGE_LOOP('',(#307,#308,#309,#310));
#49=EDGE_LOOP('',(#311,#312,#313,#314));
#50=EDGE_LOOP('',(#315,#316,#317,#318,#319,#320,#321,#322));
#51=LINE('',#490,#99);
#52=LINE('',#492,#100);
#53=LINE('',#494,#101);
#54=LINE('',#495,#102);
#55=LINE('',#499,#103);
#56=LINE('',#501,#104);
#57=LINE('',#503,#105);
#58=LINE('',#504,#106);
#59=LINE('',#508,#107);
#60=LINE('',#509,#108);
#61=LINE('',#510,#109);
#62=LINE('',#514,#110);
#63=LINE('',#515,#111);
#64=LINE('',#516,#112);
#65=LINE('',#520,#113);
#66=LINE('',#522,#114);
#67=LINE('',#524,#115);
#68=LINE('',#525,#116);
#69=LINE('',#527,#117);
#70=LINE('',#528,#118);
#71=LINE('',#531,#119);
#72=LINE('',#533,#120);
#73=LINE('',#534,#121);
#74=LINE('',#538,#122);
#75=LINE('',#540,#123);
#76=LINE('',#542,#124);
#77=LINE('',#543,#125);
#78=LINE('',#547,#126);
#79=LINE('',#548,#127);
#80=LINE('',#549,#128);
#81=LINE('',#552,#129);
#82=LINE('',#553,#130);
#83=LINE('',#555,#131);
#84=LINE('',#557,#132);
#85=LINE('',#559,#133);
#86=LINE('',#561,#134);
#87=LINE('',#563,#135);
#88=LINE('',#564,#136);
#89=LINE('',#567,#137);
#90=LINE('',#569,#138);
#91=LINE('',#570,#139);
#92=LINE('',#572,#140);
#93=LINE('',#573,#141);
#94=LINE('',#575,#142);
#95=LINE('',#577,#143);
#96=LINE('',#580,#144);
#97=LINE('',#581,#145);
#98=LINE('',#583,#146);
#99=VECTOR('',#404,10.);
#100=VECTOR('',#405,10.);
#101=VECTOR('',#406,10.);
#102=VECTOR('',#407,10.);
#103=VECTOR('',#410,10.);
#104=VECTOR('',#411,10.);
#105=VECTOR('',#412,10.);
#106=VECTOR('',#413,10.);
#107=VECTOR('',#416,10.);
#108=VECTOR('',#417,10.);
#109=VECTOR('',#418,10.);
#110=VECTOR('',#421,10.);
#111=VECTOR('',#422,10.);
#112=VECTOR('',#423,10.);
#113=VECTOR('',#426,10.);
#114=VECTOR('',#427,10.);
#115=VECTOR('',#428,10.);
#116=VECTOR('',#429,10.);
#117=VECTOR('',#430,10.);
#118=VECTOR('',#431,10.);
#119=VECTOR('',#434,10.);
#120=VECTOR('',#435,10.);
#121=VECTOR('',#436,10.);
#122=VECTOR('',#439,10.);
#123=VECTOR('',#440,10.);
#124=VECTOR('',#441,10.);
#125=VECTOR('',#442,10.);
#126=VECTOR('',#445,10.);
#127=VECTOR('',#446,10.);
#128=VECTOR('',#447,10.);
#129=VECTOR('',#450,10.);
#130=VECTOR('',#451,10.);
#131=VECTOR('',#454,10.);
#132=VECTOR('',#457,10.);
#133=VECTOR('',#458,10.);
#134=VECTOR('',#459,10.);
#135=VECTOR('',#460,10.);
#136=VECTOR('',#461,10.);
#137=VECTOR('',#464,10.);
#138=VECTOR('',#465,10.);
#139=VECTOR('',#466,10.);
#140=VECTOR('',#469,10.);
#141=VECTOR('',#470,10.);
#142=VECTOR('',#473,10.);
#143=VECTOR('',#476,10.);
#144=VECTOR('',#479,10.);
#145=VECTOR('',#480,10.);
#146=VECTOR('',#483,10.);
#147=VERTEX_POINT('',#488);
#148=VERTEX_POINT('',#489);
#149=VERTEX_POINT('',#491);
#150=VERTEX_POINT('',#493);
#151=VERTEX_POINT('',#497);
#152=VERTEX_POINT('',#498);
#153=VERTEX_POINT('',#500);
#154=VERTEX_POINT('',#502);
#155=VERTEX_POINT('',#506);
#156=VERTEX_POINT('',#507);
#157=VERTEX_POINT('',#512);
#158=VERTEX_POINT('',#513);
#159=VERTEX_POINT('',#518);
#160=VERTEX_POINT('',#519);
#161=VERTEX_POINT('',#521);
#162=VERTEX_POINT('',#523);
#163=VERTEX_POINT('',#526);
#164=VERTEX_POINT('',#530);
#165=VERTEX_POINT('',#532);
#166=VERTEX_POINT('',#536);
#167=VERTEX_POINT('',#537);
#168=VERTEX_POINT('',#539);
#169=VERTEX_POINT('',#541);
#170=VERTEX_POINT('',#545);
#171=VERTEX_POINT('',#546);
#172=VERTEX_POINT('',#551);
#173=VERTEX_POINT('',#558);
#174=VERTEX_POINT('',#560);
#175=VERTEX_POINT('',#562);
#176=VERTEX_POINT('',#566);
#177=VERTEX_POINT('',#568);
#178=VERTEX_POINT('',#579);
#179=EDGE_CURVE('',#147,#148,#51,.T.);
#180=EDGE_CURVE('',#149,#147,#52,.T.);
#181=EDGE_CURVE('',#150,#149,#53,.T.);
#182=EDGE_CURVE('',#148,#150,#54,.T.);
#183=EDGE_CURVE('',#151,#152,#55,.T.);
#184=EDGE_CURVE('',#153,#151,#56,.T.);
#185=EDGE_CURVE('',#154,#153,#57,.T.);
#186=EDGE_CURVE('',#152,#154,#58,.T.);
#187=EDGE_CURVE('',#155,#156,#59,.T.);
#188=EDGE_CURVE('',#156,#154,#60,.T.);
#189=EDGE_CURVE('',#155,#153,#61,.T.);
#190=EDGE_CURVE('',#157,#158,#62,.T.);
#191=EDGE_CURVE('',#158,#150,#63,.T.);
#192=EDGE_CURVE('',#157,#149,#64,.T.);
#193=EDGE_CURVE('',#159,#160,#65,.T.);
#194=EDGE_CURVE('',#159,#161,#66,.T.);
#195=EDGE_CURVE('',#162,#161,#67,.T.);
#196=EDGE_CURVE('',#162,#148,#68,.T.);
#197=EDGE_CURVE('',#163,#158,#69,.T.);
#198=EDGE_CURVE('',#160,#163,#70,.T.);
#199=EDGE_CURVE('',#162,#164,#71,.T.);
#200=EDGE_CURVE('',#161,#165,#72,.T.);
#201=EDGE_CURVE('',#165,#164,#73,.T.);
#202=EDGE_CURVE('',#166,#167,#74,.T.);
#203=EDGE_CURVE('',#166,#168,#75,.T.);
#204=EDGE_CURVE('',#168,#169,#76,.T.);
#205=EDGE_CURVE('',#169,#167,#77,.T.);
#206=EDGE_CURVE('',#170,#171,#78,.T.);
#207=EDGE_CURVE('',#170,#169,#79,.T.);
#208=EDGE_CURVE('',#171,#168,#80,.T.);
#209=EDGE_CURVE('',#172,#159,#81,.T.);
#210=EDGE_CURVE('',#172,#165,#82,.T.);
#211=EDGE_CURVE('',#164,#147,#83,.T.);
#212=EDGE_CURVE('',#171,#172,#84,.T.);
#213=EDGE_CURVE('',#160,#173,#85,.T.);
#214=EDGE_CURVE('',#173,#174,#86,.T.);
#215=EDGE_CURVE('',#174,#175,#87,.T.);
#216=EDGE_CURVE('',#175,#170,#88,.T.);
#217=EDGE_CURVE('',#176,#174,#89,.T.);
#218=EDGE_CURVE('',#177,#176,#90,.T.);
#219=EDGE_CURVE('',#175,#177,#91,.T.);
#220=EDGE_CURVE('',#177,#155,#92,.T.);
#221=EDGE_CURVE('',#167,#151,#93,.T.);
#222=EDGE_CURVE('',#166,#152,#94,.T.);
#223=EDGE_CURVE('',#156,#157,#95,.T.);
#224=EDGE_CURVE('',#178,#163,#96,.T.);
#225=EDGE_CURVE('',#173,#178,#97,.T.);
#226=EDGE_CURVE('',#176,#178,#98,.T.);
#227=ORIENTED_EDGE('',*,*,#179,.F.);
#228=ORIENTED_EDGE('',*,*,#180,.F.);
#229=ORIENTED_EDGE('',*,*,#181,.F.);
#230=ORIENTED_EDGE('',*,*,#182,.F.);
#231=ORIENTED_EDGE('',*,*,#183,.F.);
#232=ORIENTED_EDGE('',*,*,#184,.F.);
#233=ORIENTED_EDGE('',*,*,#185,.F.);
#234=ORIENTED_EDGE('',*,*,#186,.F.);
#235=ORIENTED_EDGE('',*,*,#187,.T.);
#236=ORIENTED_EDGE('',*,*,#188,.T.);
#237=ORIENTED_EDGE('',*,*,#185,.T.);
#238=ORIENTED_EDGE('',*,*,#189,.F.);
#239=ORIENTED_EDGE('',*,*,#190,.T.);
#240=ORIENTED_EDGE('',*,*,#191,.T.);
#241=ORIENTED_EDGE('',*,*,#181,.T.);
#242=ORIENTED_EDGE('',*,*,#192,.F.);
#243=ORIENTED_EDGE('',*,*,#193,.F.);
#244=ORIENTED_EDGE('',*,*,#194,.T.);
#245=ORIENTED_EDGE('',*,*,#195,.F.);
#246=ORIENTED_EDGE('',*,*,#196,.T.);
#247=ORIENTED_EDGE('',*,*,#182,.T.);
#248=ORIENTED_EDGE('',*,*,#191,.F.);
#249=ORIENTED_EDGE('',*,*,#197,.F.);
#250=ORIENTED_EDGE('',*,*,#198,.F.);
#251=ORIENTED_EDGE('',*,*,#199,.F.);
#252=ORIENTED_EDGE('',*,*,#195,.T.);
#253=ORIENTED_EDGE('',*,*,#200,.T.);
#254=ORIENTED_EDGE('',*,*,#201,.T.);
#255=ORIENTED_EDGE('',*,*,#202,.F.);
#256=ORIENTED_EDGE('',*,*,#203,.T.);
#257=ORIENTED_EDGE('',*,*,#204,.T.);
#258=ORIENTED_EDGE('',*,*,#205,.T.);
#259=ORIENTED_EDGE('',*,*,#206,.F.);
#260=ORIENTED_EDGE('',*,*,#207,.T.);
#261=ORIENTED_EDGE('',*,*,#204,.F.);
#262=ORIENTED_EDGE('',*,*,#208,.F.);
#263=ORIENTED_EDGE('',*,*,#209,.F.);
#264=ORIENTED_EDGE('',*,*,#210,.T.);
#265=ORIENTED_EDGE('',*,*,#200,.F.);
#266=ORIENTED_EDGE('',*,*,#194,.F.);
#267=ORIENTED_EDGE('',*,*,#179,.T.);
#268=ORIENTED_EDGE('',*,*,#196,.F.);
#269=ORIENTED_EDGE('',*,*,#199,.T.);
#270=ORIENTED_EDGE('',*,*,#211,.T.);
#271=ORIENTED_EDGE('',*,*,#212,.T.);
#272=ORIENTED_EDGE('',*,*,#209,.T.);
#273=ORIENTED_EDGE('',*,*,#193,.T.);
#274=ORIENTED_EDGE('',*,*,#213,.T.);
#275=ORIENTED_EDGE('',*,*,#214,.T.);
#276=ORIENTED_EDGE('',*,*,#215,.T.);
#277=ORIENTED_EDGE('',*,*,#216,.T.);
#278=ORIENTED_EDGE('',*,*,#206,.T.);
#279=ORIENTED_EDGE('',*,*,#217,.F.);
#280=ORIENTED_EDGE('',*,*,#218,.F.);
#281=ORIENTED_EDGE('',*,*,#219,.F.);
#282=ORIENTED_EDGE('',*,*,#215,.F.);
#283=ORIENTED_EDGE('',*,*,#205,.F.);
#284=ORIENTED_EDGE('',*,*,#207,.F.);
#285=ORIENTED_EDGE('',*,*,#216,.F.);
#286=ORIENTED_EDGE('',*,*,#219,.T.);
#287=ORIENTED_EDGE('',*,*,#220,.T.);
#288=ORIENTED_EDGE('',*,*,#189,.T.);
#289=ORIENTED_EDGE('',*,*,#184,.T.);
#290=ORIENTED_EDGE('',*,*,#221,.F.);
#291=ORIENTED_EDGE('',*,*,#183,.T.);
#292=ORIENTED_EDGE('',*,*,#222,.F.);
#293=ORIENTED_EDGE('',*,*,#202,.T.);
#294=ORIENTED_EDGE('',*,*,#221,.T.);
#295=ORIENTED_EDGE('',*,*,#201,.F.);
#296=ORIENTED_EDGE('',*,*,#210,.F.);
#297=ORIENTED_EDGE('',*,*,#212,.F.);
#298=ORIENTED_EDGE('',*,*,#208,.T.);
#299=ORIENTED_EDGE('',*,*,#203,.F.);
#300=ORIENTED_EDGE('',*,*,#222,.T.);
#301=ORIENTED_EDGE('',*,*,#186,.T.);
#302=ORIENTED_EDGE('',*,*,#188,.F.);
#303=ORIENTED_EDGE('',*,*,#223,.T.);
#304=ORIENTED_EDGE('',*,*,#192,.T.);
#305=ORIENTED_EDGE('',*,*,#180,.T.);
#306=ORIENTED_EDGE('',*,*,#211,.F.);
#307=ORIENTED_EDGE('',*,*,#198,.T.);
#308=ORIENTED_EDGE('',*,*,#224,.F.);
#309=ORIENTED_EDGE('',*,*,#225,.F.);
#310=ORIENTED_EDGE('',*,*,#213,.F.);
#311=ORIENTED_EDGE('',*,*,#225,.T.);
#312=ORIENTED_EDGE('',*,*,#226,.F.);
#313=ORIENTED_EDGE('',*,*,#217,.T.);
#314=ORIENTED_EDGE('',*,*,#214,.F.);
#315=ORIENTED_EDGE('',*,*,#226,.T.);
#316=ORIENTED_EDGE('',*,*,#224,.T.);
#317=ORIENTED_EDGE('',*,*,#197,.T.);
#318=ORIENTED_EDGE('',*,*,#190,.F.);
#319=ORIENTED_EDGE('',*,*,#223,.F.);
#320=ORIENTED_EDGE('',*,*,#187,.F.);
#321=ORIENTED_EDGE('',*,*,#220,.F.);
#322=ORIENTED_EDGE('',*,*,#218,.T.);
#323=PLANE('',#382);
#324=PLANE('',#383);
#325=PLANE('',#384);
#326=PLANE('',#385);
#327=PLANE('',#386);
#328=PLANE('',#387);
#329=PLANE('',#388);
#330=PLANE('',#389);
#331=PLANE('',#390);
#332=PLANE('',#391);
#333=PLANE('',#392);
#334=PLANE('',#393);
#335=PLANE('',#394);
#336=PLANE('',#395);
#337=PLANE('',#396);
#338=PLANE('',#397);
#339=PLANE('',#398);
#340=PLANE('',#399);
#341=ADVANCED_FACE('',(#15),#323,.F.);
#342=ADVANCED_FACE('',(#16),#324,.F.);
#343=ADVANCED_FACE('',(#17),#325,.F.);
#344=ADVANCED_FACE('',(#18),#326,.F.);
#345=ADVANCED_FACE('',(#19),#327,.T.);
#346=ADVANCED_FACE('',(#20),#328,.T.);
#347=ADVANCED_FACE('',(#21),#329,.T.);
#348=ADVANCED_FACE('',(#22),#330,.T.);
#349=ADVANCED_FACE('',(#23),#331,.T.);
#350=ADVANCED_FACE('',(#24),#332,.T.);
#351=ADVANCED_FACE('',(#25),#333,.T.);
#352=ADVANCED_FACE('',(#26),#334,.T.);
#353=ADVANCED_FACE('',(#27),#335,.T.);
#354=ADVANCED_FACE('',(#28),#336,.T.);
#355=ADVANCED_FACE('',(#29),#337,.T.);
#356=ADVANCED_FACE('',(#30),#338,.T.);
#357=ADVANCED_FACE('',(#31),#339,.T.);
#358=ADVANCED_FACE('',(#32),#340,.T.);
#359=CLOSED_SHELL('',(#341,#342,#343,#344,#345,#346,#347,#348,#349,#350,
#351,#352,#353,#354,#355,#356,#357,#358));
#360=DERIVED_UNIT_ELEMENT(#363,1.);
#361=DERIVED_UNIT_ELEMENT(#590,-3.);
#362=DIMENSIONAL_EXPONENTS(0.,1.,0.,0.,0.,0.,0.);
#363=(
CONVERSION_BASED_UNIT('gram',#365)
MASS_UNIT()
NAMED_UNIT(#362)
);
#364=(
MASS_UNIT()
NAMED_UNIT(*)
SI_UNIT(.KILO.,.GRAM.)
);
#365=MASS_MEASURE_WITH_UNIT(MASS_MEASURE(0.001),#364);
#366=DERIVED_UNIT((#360,#361));
#367=MEASURE_REPRESENTATION_ITEM('density measure',
POSITIVE_RATIO_MEASURE(0.),#366);
#368=PROPERTY_DEFINITION_REPRESENTATION(#373,#370);
#369=PROPERTY_DEFINITION_REPRESENTATION(#374,#371);
#370=REPRESENTATION('material name',(#372),#587);
#371=REPRESENTATION('density',(#367),#587);
#372=DESCRIPTIVE_REPRESENTATION_ITEM('ACC.TECHN. INFO',
'ACC.TECHN. INFO');
#373=PROPERTY_DEFINITION('material property','material name',#597);
#374=PROPERTY_DEFINITION('material property','density of part',#597);
#375=DATE_TIME_ROLE('creation_date');
#376=APPLIED_DATE_AND_TIME_ASSIGNMENT(#377,#375,(#597));
#377=DATE_AND_TIME(#378,#379);
#378=CALENDAR_DATE(2024,20,6);
#379=LOCAL_TIME(0,0,0.,#380);
#380=COORDINATED_UNIVERSAL_TIME_OFFSET(0,0,.BEHIND.);
#381=AXIS2_PLACEMENT_3D('placement',#486,#400,#401);
#382=AXIS2_PLACEMENT_3D('',#487,#402,#403);
#383=AXIS2_PLACEMENT_3D('',#496,#408,#409);
#384=AXIS2_PLACEMENT_3D('',#505,#414,#415);
#385=AXIS2_PLACEMENT_3D('',#511,#419,#420);
#386=AXIS2_PLACEMENT_3D('',#517,#424,#425);
#387=AXIS2_PLACEMENT_3D('',#529,#432,#433);
#388=AXIS2_PLACEMENT_3D('',#535,#437,#438);
#389=AXIS2_PLACEMENT_3D('',#544,#443,#444);
#390=AXIS2_PLACEMENT_3D('',#550,#448,#449);
#391=AXIS2_PLACEMENT_3D('',#554,#452,#453);
#392=AXIS2_PLACEMENT_3D('',#556,#455,#456);
#393=AXIS2_PLACEMENT_3D('',#565,#462,#463);
#394=AXIS2_PLACEMENT_3D('',#571,#467,#468);
#395=AXIS2_PLACEMENT_3D('',#574,#471,#472);
#396=AXIS2_PLACEMENT_3D('',#576,#474,#475);
#397=AXIS2_PLACEMENT_3D('',#578,#477,#478);
#398=AXIS2_PLACEMENT_3D('',#582,#481,#482);
#399=AXIS2_PLACEMENT_3D('',#584,#484,#485);
#400=DIRECTION('axis',(0.,0.,1.));
#401=DIRECTION('refdir',(1.,0.,0.));
#402=DIRECTION('center_axis',(0.,1.,0.));
#403=DIRECTION('ref_axis',(0.,0.,1.));
#404=DIRECTION('',(0.,0.,1.));
#405=DIRECTION('',(-1.,0.,1.8513978385893E-16));
#406=DIRECTION('',(-4.75809867696494E-16,0.,-1.));
#407=DIRECTION('',(1.,0.,-1.3177721360536E-16));
#408=DIRECTION('center_axis',(0.,1.,0.));
#409=DIRECTION('ref_axis',(0.,0.,1.));
#410=DIRECTION('',(0.,0.,-1.));
#411=DIRECTION('',(1.,0.,-1.3177721360536E-16));
#412=DIRECTION('',(-3.1720657846433E-16,0.,1.));
#413=DIRECTION('',(-1.,0.,1.8513978385893E-16));
#414=DIRECTION('center_axis',(1.,0.,3.1720657846433E-16));
#415=DIRECTION('ref_axis',(-3.1720657846433E-16,0.,1.));
#416=DIRECTION('',(3.1720657846433E-16,0.,-1.));
#417=DIRECTION('',(0.,-1.,0.));
#418=DIRECTION('',(0.,-1.,0.));
#419=DIRECTION('center_axis',(-1.,0.,4.75809867696494E-16));
#420=DIRECTION('ref_axis',(-4.75809867696494E-16,0.,-1.));
#421=DIRECTION('',(4.75809867696494E-16,0.,1.));
#422=DIRECTION('',(0.,-1.,0.));
#423=DIRECTION('',(0.,-1.,0.));
#424=DIRECTION('center_axis',(0.,0.,1.));
#425=DIRECTION('ref_axis',(1.,0.,0.));
#426=DIRECTION('',(-1.,0.,1.3177721360536E-16));
#427=DIRECTION('',(0.,1.,0.));
#428=DIRECTION('',(1.,0.,-1.3177721360536E-16));
#429=DIRECTION('',(0.,1.,0.));
#430=DIRECTION('',(1.,0.,0.));
#431=DIRECTION('',(0.,1.,0.));
#432=DIRECTION('center_axis',(0.,1.,0.));
#433=DIRECTION('ref_axis',(0.,0.,1.));
#434=DIRECTION('',(0.,0.,-1.));
#435=DIRECTION('',(-4.75809867696494E-16,0.,-1.));
#436=DIRECTION('',(-1.,0.,1.8513978385893E-16));
#437=DIRECTION('center_axis',(0.,1.,0.));
#438=DIRECTION('ref_axis',(0.,0.,1.));
#439=DIRECTION('',(0.,0.,1.));
#440=DIRECTION('',(-1.,0.,1.8513978385893E-16));
#441=DIRECTION('',(-3.1720657846433E-16,0.,1.));
#442=DIRECTION('',(1.,0.,-1.3177721360536E-16));
#443=DIRECTION('center_axis',(-1.,0.,-3.1720657846433E-16));
#444=DIRECTION('ref_axis',(-3.1720657846433E-16,0.,1.));
#445=DIRECTION('',(3.1720657846433E-16,0.,-1.));
#446=DIRECTION('',(0.,1.,0.));
#447=DIRECTION('',(0.,1.,0.));
#448=DIRECTION('center_axis',(1.,0.,-4.75809867696494E-16));
#449=DIRECTION('ref_axis',(-4.75809867696494E-16,0.,-1.));
#450=DIRECTION('',(4.75809867696494E-16,0.,1.));
#451=DIRECTION('',(0.,1.,0.));
#452=DIRECTION('center_axis',(1.,0.,0.));
#453=DIRECTION('ref_axis',(0.,0.,-1.));
#454=DIRECTION('',(0.,1.,0.));
#455=DIRECTION('center_axis',(0.,-1.,0.));
#456=DIRECTION('ref_axis',(0.,0.,-1.));
#457=DIRECTION('',(1.,0.,-1.8513978385893E-16));
#458=DIRECTION('',(0.,0.,1.));
#459=DIRECTION('',(-1.,0.,0.));
#460=DIRECTION('',(0.,0.,-1.));
#461=DIRECTION('',(-1.,0.,-1.48029736616688E-15));
#462=DIRECTION('center_axis',(-1.,0.,0.));
#463=DIRECTION('ref_axis',(0.,0.,1.));
#464=DIRECTION('',(0.,-1.,0.));
#465=DIRECTION('',(0.,0.,1.));
#466=DIRECTION('',(0.,1.,0.));
#467=DIRECTION('center_axis',(-1.48029736616688E-15,0.,1.));
#468=DIRECTION('ref_axis',(1.,0.,1.48029736616688E-15));
#469=DIRECTION('',(-1.,0.,-1.48029736616688E-15));
#470=DIRECTION('',(0.,1.,0.));
#471=DIRECTION('center_axis',(-1.,0.,0.));
#472=DIRECTION('ref_axis',(0.,0.,1.));
#473=DIRECTION('',(0.,1.,0.));
#474=DIRECTION('center_axis',(-3.67394039744206E-16,0.,-1.));
#475=DIRECTION('ref_axis',(-1.,0.,3.67394039744206E-16));
#476=DIRECTION('',(1.,0.,-1.8513978385893E-16));
#477=DIRECTION('center_axis',(1.,0.,0.));
#478=DIRECTION('ref_axis',(0.,0.,-1.));
#479=DIRECTION('',(0.,0.,-1.));
#480=DIRECTION('',(0.,1.,0.));
#481=DIRECTION('center_axis',(0.,0.,1.));
#482=DIRECTION('ref_axis',(1.,0.,0.));
#483=DIRECTION('',(1.,0.,0.));
#484=DIRECTION('center_axis',(0.,1.,0.));
#485=DIRECTION('ref_axis',(0.,0.,1.));
#486=CARTESIAN_POINT('',(0.,0.,0.));
#487=CARTESIAN_POINT('Origin',(4.44089209850063E-15,560.5,14.));
#488=CARTESIAN_POINT('',(32.,560.5,-1.21636837995317E-14));
#489=CARTESIAN_POINT('',(32.,560.5,28.0000000000001));
#490=CARTESIAN_POINT('',(32.,560.5,21.));
#491=CARTESIAN_POINT('',(33.7,560.5,-1.24784214320919E-14));
#492=CARTESIAN_POINT('',(-33.7,560.5,0.));
#493=CARTESIAN_POINT('',(33.7,560.5,28.0000000000001));
#494=CARTESIAN_POINT('',(33.7,560.5,-1.24784214320919E-14));
#495=CARTESIAN_POINT('',(33.7,560.5,28.0000000000001));
#496=CARTESIAN_POINT('Origin',(4.44089209850063E-15,560.5,14.));
#497=CARTESIAN_POINT('',(-32.,560.5,28.0000000000001));
#498=CARTESIAN_POINT('',(-32.,560.5,-3.14737632560181E-16));
#499=CARTESIAN_POINT('',(-32.,560.5,7.00000000000002));
#500=CARTESIAN_POINT('',(-33.7,560.5,28.0000000000001));
#501=CARTESIAN_POINT('',(33.7,560.5,28.0000000000001));
#502=CARTESIAN_POINT('',(-33.7,560.5,0.));
#503=CARTESIAN_POINT('',(-33.7,560.5,28.0000000000001));
#504=CARTESIAN_POINT('',(-33.7,560.5,0.));
#505=CARTESIAN_POINT('Origin',(-33.7,568.5,0.));
#506=CARTESIAN_POINT('',(-33.7,568.5,28.0000000000001));
#507=CARTESIAN_POINT('',(-33.7,568.5,0.));
#508=CARTESIAN_POINT('',(-33.7,568.5,28.0000000000001));
#509=CARTESIAN_POINT('',(-33.7,568.5,0.));
#510=CARTESIAN_POINT('',(-33.7,568.5,28.0000000000001));
#511=CARTESIAN_POINT('Origin',(33.7,568.5,28.0000000000001));
#512=CARTESIAN_POINT('',(33.7,568.5,-1.24784214320919E-14));
#513=CARTESIAN_POINT('',(33.7,568.5,28.0000000000001));
#514=CARTESIAN_POINT('',(33.7,568.5,-1.24784214320919E-14));
#515=CARTESIAN_POINT('',(33.7,568.5,28.0000000000001));
#516=CARTESIAN_POINT('',(33.7,568.5,-1.24784214320919E-14));
#517=CARTESIAN_POINT('Origin',(29.,0.,28.));
#518=CARTESIAN_POINT('',(33.7,-568.5,28.0000000000001));
#519=CARTESIAN_POINT('',(29.,-568.5,28.));
#520=CARTESIAN_POINT('',(33.7,-568.5,28.0000000000001));
#521=CARTESIAN_POINT('',(33.7,-560.5,28.0000000000001));
#522=CARTESIAN_POINT('',(33.7,-568.5,28.0000000000001));
#523=CARTESIAN_POINT('',(32.,-560.5,28.0000000000001));
#524=CARTESIAN_POINT('',(33.7,-560.5,28.0000000000001));
#525=CARTESIAN_POINT('',(32.,0.,28.));
#526=CARTESIAN_POINT('',(29.,568.5,28.));
#527=CARTESIAN_POINT('',(29.,568.5,28.));
#528=CARTESIAN_POINT('',(29.,0.,28.));
#529=CARTESIAN_POINT('Origin',(4.44089209850063E-15,-560.5,14.));
#530=CARTESIAN_POINT('',(32.,-560.5,-1.21636837995317E-14));
#531=CARTESIAN_POINT('',(32.,-560.5,21.));
#532=CARTESIAN_POINT('',(33.7,-560.5,-1.24784214320919E-14));
#533=CARTESIAN_POINT('',(33.7,-560.5,-1.24784214320919E-14));
#534=CARTESIAN_POINT('',(-33.7,-560.5,0.));
#535=CARTESIAN_POINT('Origin',(4.44089209850063E-15,-560.5,14.));
#536=CARTESIAN_POINT('',(-32.,-560.5,-3.14737632560181E-16));
#537=CARTESIAN_POINT('',(-32.,-560.5,28.0000000000001));
#538=CARTESIAN_POINT('',(-32.,-560.5,7.00000000000002));
#539=CARTESIAN_POINT('',(-33.7,-560.5,0.));
#540=CARTESIAN_POINT('',(-33.7,-560.5,0.));
#541=CARTESIAN_POINT('',(-33.7,-560.5,28.0000000000001));
#542=CARTESIAN_POINT('',(-33.7,-560.5,28.0000000000001));
#543=CARTESIAN_POINT('',(33.7,-560.5,28.0000000000001));
#544=CARTESIAN_POINT('Origin',(-33.7,-568.5,0.));
#545=CARTESIAN_POINT('',(-33.7,-568.5,28.0000000000001));
#546=CARTESIAN_POINT('',(-33.7,-568.5,0.));
#547=CARTESIAN_POINT('',(-33.7,-568.5,28.0000000000001));
#548=CARTESIAN_POINT('',(-33.7,-568.5,28.0000000000001));
#549=CARTESIAN_POINT('',(-33.7,-568.5,0.));
#550=CARTESIAN_POINT('Origin',(33.7,-568.5,28.0000000000001));
#551=CARTESIAN_POINT('',(33.7,-568.5,-1.24784214320919E-14));
#552=CARTESIAN_POINT('',(33.7,-568.5,-1.24784214320919E-14));
#553=CARTESIAN_POINT('',(33.7,-568.5,-1.24784214320919E-14));
#554=CARTESIAN_POINT('Origin',(32.,0.,28.));
#555=CARTESIAN_POINT('',(32.,0.,-5.87830463590729E-15));
#556=CARTESIAN_POINT('Origin',(0.,-568.5,19.));
#557=CARTESIAN_POINT('',(-33.7,-568.5,0.));
#558=CARTESIAN_POINT('',(29.,-568.5,38.));
#559=CARTESIAN_POINT('',(29.,-568.5,38.));
#560=CARTESIAN_POINT('',(-29.,-568.5,38.));
#561=CARTESIAN_POINT('',(-29.,-568.5,38.));
#562=CARTESIAN_POINT('',(-29.,-568.5,28.));
#563=CARTESIAN_POINT('',(-29.,-568.5,28.));
#564=CARTESIAN_POINT('',(-32.,-568.5,28.));
#565=CARTESIAN_POINT('Origin',(-29.,0.,28.));
#566=CARTESIAN_POINT('',(-29.,568.5,38.));
#567=CARTESIAN_POINT('',(-29.,0.,38.));
#568=CARTESIAN_POINT('',(-29.,568.5,28.));
#569=CARTESIAN_POINT('',(-29.,568.5,28.));
#570=CARTESIAN_POINT('',(-29.,0.,28.));
#571=CARTESIAN_POINT('Origin',(-32.,0.,28.));
#572=CARTESIAN_POINT('',(-32.,568.5,28.));
#573=CARTESIAN_POINT('',(-32.,0.,28.));
#574=CARTESIAN_POINT('Origin',(-32.,0.,1.76349139077219E-14));
#575=CARTESIAN_POINT('',(-32.,0.,1.76349139077219E-14));
#576=CARTESIAN_POINT('Origin',(32.,0.,-5.87830463590729E-15));
#577=CARTESIAN_POINT('',(-33.7,568.5,0.));
#578=CARTESIAN_POINT('Origin',(29.,0.,38.));
#579=CARTESIAN_POINT('',(29.,568.5,38.));
#580=CARTESIAN_POINT('',(29.,568.5,38.));
#581=CARTESIAN_POINT('',(29.,0.,38.));
#582=CARTESIAN_POINT('Origin',(-29.,0.,38.));
#583=CARTESIAN_POINT('',(-29.,568.5,38.));
#584=CARTESIAN_POINT('Origin',(0.,568.5,19.));
#585=UNCERTAINTY_MEASURE_WITH_UNIT(LENGTH_MEASURE(0.01),#589,
'DISTANCE_ACCURACY_VALUE',
'Maximum model space distance between geometric entities at asserted c
onnectivities');
#586=UNCERTAINTY_MEASURE_WITH_UNIT(LENGTH_MEASURE(0.01),#589,
'DISTANCE_ACCURACY_VALUE',
'Maximum model space distance between geometric entities at asserted c
onnectivities');
#587=(
GEOMETRIC_REPRESENTATION_CONTEXT(3)
GLOBAL_UNCERTAINTY_ASSIGNED_CONTEXT((#585))
GLOBAL_UNIT_ASSIGNED_CONTEXT((#589,#591,#592))
REPRESENTATION_CONTEXT('','3D')
);
#588=(
GEOMETRIC_REPRESENTATION_CONTEXT(3)
GLOBAL_UNCERTAINTY_ASSIGNED_CONTEXT((#586))
GLOBAL_UNIT_ASSIGNED_CONTEXT((#589,#591,#592))
REPRESENTATION_CONTEXT('','3D')
);
#589=(
LENGTH_UNIT()
NAMED_UNIT(*)
SI_UNIT(.MILLI.,.METRE.)
);
#590=(
LENGTH_UNIT()
NAMED_UNIT(*)
SI_UNIT(.CENTI.,.METRE.)
);
#591=(
NAMED_UNIT(*)
PLANE_ANGLE_UNIT()
SI_UNIT($,.RADIAN.)
);
#592=(
NAMED_UNIT(*)
SI_UNIT($,.STERADIAN.)
SOLID_ANGLE_UNIT()
);
#593=SHAPE_DEFINITION_REPRESENTATION(#594,#595);
#594=PRODUCT_DEFINITION_SHAPE('',$,#597);
#595=SHAPE_REPRESENTATION('',(#381),#587);
#596=PRODUCT_DEFINITION_CONTEXT('part definition',#601,'design');
#597=PRODUCT_DEFINITION('ENG000035247','ENG000035247',#598,#596);
#598=PRODUCT_DEFINITION_FORMATION('00',$,#603);
#599=PRODUCT_RELATED_PRODUCT_CATEGORY('ENG000035247','ENG000035247',(#603));
#600=APPLICATION_PROTOCOL_DEFINITION('international standard',
'automotive_design',2009,#601);
#601=APPLICATION_CONTEXT(
'Core Data for Automotive Mechanical Design Process');
#602=PRODUCT_CONTEXT('part definition',#601,'mechanical');
#603=PRODUCT('ENG000035247','ENG000035247','SIMPLE',(#602));
#604=PRESENTATION_STYLE_ASSIGNMENT((#605));
#605=SURFACE_STYLE_USAGE(.BOTH.,#608);
#606=SURFACE_STYLE_RENDERING_WITH_PROPERTIES($,#612,(#607));
#607=SURFACE_STYLE_TRANSPARENT(0.);
#608=SURFACE_SIDE_STYLE('',(#609,#606));
#609=SURFACE_STYLE_FILL_AREA(#610);
#610=FILL_AREA_STYLE('',(#611));
#611=FILL_AREA_STYLE_COLOUR('',#612);
#612=COLOUR_RGB('',1.,1.,0.);
ENDSEC;
END-ISO-10303-21;
