ISO-10303-21;
HEADER;
/* Generated by software containing ST-Developer
 * from STEP Tools, Inc. (www.steptools.com) 
 */

FILE_DESCRIPTION(
/* description */ ('This is a sample STEP configuration'),
/* implementation_level */ '2;1');

FILE_NAME(
/* name */ '678-003xxxxxxxxx SIMPLE.ipt_Rev_00.stp',
/* time_stamp */ '2023-09-28T06:30:03+02:00',
/* author */ ('powerJobs'),
/* organization */ ('coolOrange'),
/* preprocessor_version */ 'ST-DEVELOPER v19.2',
/* originating_system */ 'Autodesk Inventor 2023',
/* authorisation */ '');

FILE_SCHEMA (('AUTOMOTIVE_DESIGN { 1 0 10303 214 3 1 1 }'));
ENDSEC;

DATA;
#10=MECHANICAL_DESIGN_GEOMETRIC_PRESENTATION_REPRESENTATION('',(#13),#476);
#11=SHAPE_REPRESENTATION_RELATIONSHIP('SRR','None',#483,#12);
#12=ADVANCED_BREP_SHAPE_REPRESENTATION('',(#14),#475);
#13=STYLED_ITEM('',(#492),#14);
#14=MANIFOLD_SOLID_BREP('Volumenk\X\F6rper1',#287);
#15=FACE_BOUND('',#44,.T.);
#16=FACE_BOUND('',#50,.T.);
#17=FACE_OUTER_BOUND('',#33,.T.);
#18=FACE_OUTER_BOUND('',#34,.T.);
#19=FACE_OUTER_BOUND('',#35,.T.);
#20=FACE_OUTER_BOUND('',#36,.T.);
#21=FACE_OUTER_BOUND('',#37,.T.);
#22=FACE_OUTER_BOUND('',#38,.T.);
#23=FACE_OUTER_BOUND('',#39,.T.);
#24=FACE_OUTER_BOUND('',#40,.T.);
#25=FACE_OUTER_BOUND('',#41,.T.);
#26=FACE_OUTER_BOUND('',#42,.T.);
#27=FACE_OUTER_BOUND('',#43,.T.);
#28=FACE_OUTER_BOUND('',#45,.T.);
#29=FACE_OUTER_BOUND('',#46,.T.);
#30=FACE_OUTER_BOUND('',#47,.T.);
#31=FACE_OUTER_BOUND('',#48,.T.);
#32=FACE_OUTER_BOUND('',#49,.T.);
#33=EDGE_LOOP('',(#183,#184,#185,#186));
#34=EDGE_LOOP('',(#187,#188,#189,#190));
#35=EDGE_LOOP('',(#191,#192,#193,#194));
#36=EDGE_LOOP('',(#195,#196,#197,#198));
#37=EDGE_LOOP('',(#199,#200,#201,#202));
#38=EDGE_LOOP('',(#203,#204,#205,#206));
#39=EDGE_LOOP('',(#207,#208,#209,#210));
#40=EDGE_LOOP('',(#211,#212,#213,#214));
#41=EDGE_LOOP('',(#215,#216,#217,#218));
#42=EDGE_LOOP('',(#219,#220,#221,#222));
#43=EDGE_LOOP('',(#223,#224,#225,#226));
#44=EDGE_LOOP('',(#227,#228,#229,#230));
#45=EDGE_LOOP('',(#231,#232,#233,#234));
#46=EDGE_LOOP('',(#235,#236,#237,#238));
#47=EDGE_LOOP('',(#239,#240,#241,#242));
#48=EDGE_LOOP('',(#243,#244,#245,#246));
#49=EDGE_LOOP('',(#247,#248,#249,#250));
#50=EDGE_LOOP('',(#251,#252,#253,#254));
#51=LINE('',#400,#87);
#52=LINE('',#402,#88);
#53=LINE('',#404,#89);
#54=LINE('',#405,#90);
#55=LINE('',#408,#91);
#56=LINE('',#410,#92);
#57=LINE('',#411,#93);
#58=LINE('',#414,#94);
#59=LINE('',#415,#95);
#60=LINE('',#418,#96);
#61=LINE('',#419,#97);
#62=LINE('',#421,#98);
#63=LINE('',#425,#99);
#64=LINE('',#427,#100);
#65=LINE('',#429,#101);
#66=LINE('',#430,#102);
#67=LINE('',#433,#103);
#68=LINE('',#435,#104);
#69=LINE('',#436,#105);
#70=LINE('',#439,#106);
#71=LINE('',#441,#107);
#72=LINE('',#442,#108);
#73=LINE('',#444,#109);
#74=LINE('',#445,#110);
#75=LINE('',#450,#111);
#76=LINE('',#452,#112);
#77=LINE('',#454,#113);
#78=LINE('',#455,#114);
#79=LINE('',#459,#115);
#80=LINE('',#460,#116);
#81=LINE('',#461,#117);
#82=LINE('',#464,#118);
#83=LINE('',#465,#119);
#84=LINE('',#468,#120);
#85=LINE('',#469,#121);
#86=LINE('',#471,#122);
#87=VECTOR('',#330,1000.);
#88=VECTOR('',#331,1.);
#89=VECTOR('',#332,3.3);
#90=VECTOR('',#333,1.);
#91=VECTOR('',#336,1000.);
#92=VECTOR('',#337,1.);
#93=VECTOR('',#338,1164.);
#94=VECTOR('',#341,3.3);
#95=VECTOR('',#342,1164.);
#96=VECTOR('',#345,1000.);
#97=VECTOR('',#346,1.);
#98=VECTOR('',#349,1000.);
#99=VECTOR('',#352,1000.);
#100=VECTOR('',#353,1.);
#101=VECTOR('',#354,4.00000000000017);
#102=VECTOR('',#355,1.);
#103=VECTOR('',#358,1000.);
#104=VECTOR('',#359,1.);
#105=VECTOR('',#360,1193.);
#106=VECTOR('',#363,1000.);
#107=VECTOR('',#364,1.);
#108=VECTOR('',#365,4.00000000000017);
#109=VECTOR('',#368,1000.);
#110=VECTOR('',#369,1193.);
#111=VECTOR('',#374,6.00000000000012);
#112=VECTOR('',#375,1232.);
#113=VECTOR('',#376,6.00000000000012);
#114=VECTOR('',#377,1232.);
#115=VECTOR('',#380,1232.);
#116=VECTOR('',#381,79.);
#117=VECTOR('',#382,79.);
#118=VECTOR('',#385,6.00000000000012);
#119=VECTOR('',#386,79.);
#120=VECTOR('',#389,1232.);
#121=VECTOR('',#390,79.);
#122=VECTOR('',#393,6.00000000000012);
#123=VERTEX_POINT('',#398);
#124=VERTEX_POINT('',#399);
#125=VERTEX_POINT('',#401);
#126=VERTEX_POINT('',#403);
#127=VERTEX_POINT('',#407);
#128=VERTEX_POINT('',#409);
#129=VERTEX_POINT('',#413);
#130=VERTEX_POINT('',#417);
#131=VERTEX_POINT('',#423);
#132=VERTEX_POINT('',#424);
#133=VERTEX_POINT('',#426);
#134=VERTEX_POINT('',#428);
#135=VERTEX_POINT('',#432);
#136=VERTEX_POINT('',#434);
#137=VERTEX_POINT('',#438);
#138=VERTEX_POINT('',#440);
#139=VERTEX_POINT('',#448);
#140=VERTEX_POINT('',#449);
#141=VERTEX_POINT('',#451);
#142=VERTEX_POINT('',#453);
#143=VERTEX_POINT('',#457);
#144=VERTEX_POINT('',#458);
#145=VERTEX_POINT('',#463);
#146=VERTEX_POINT('',#467);
#147=EDGE_CURVE('',#123,#124,#51,.T.);
#148=EDGE_CURVE('',#123,#125,#52,.T.);
#149=EDGE_CURVE('',#125,#126,#53,.T.);
#150=EDGE_CURVE('',#124,#126,#54,.T.);
#151=EDGE_CURVE('',#127,#123,#55,.T.);
#152=EDGE_CURVE('',#128,#127,#56,.T.);
#153=EDGE_CURVE('',#128,#125,#57,.T.);
#154=EDGE_CURVE('',#129,#128,#58,.T.);
#155=EDGE_CURVE('',#126,#129,#59,.T.);
#156=EDGE_CURVE('',#124,#130,#60,.T.);
#157=EDGE_CURVE('',#130,#129,#61,.T.);
#158=EDGE_CURVE('',#130,#127,#62,.T.);
#159=EDGE_CURVE('',#131,#132,#63,.T.);
#160=EDGE_CURVE('',#131,#133,#64,.T.);
#161=EDGE_CURVE('',#134,#133,#65,.T.);
#162=EDGE_CURVE('',#134,#132,#66,.T.);
#163=EDGE_CURVE('',#135,#131,#67,.T.);
#164=EDGE_CURVE('',#136,#135,#68,.T.);
#165=EDGE_CURVE('',#133,#136,#69,.T.);
#166=EDGE_CURVE('',#137,#135,#70,.T.);
#167=EDGE_CURVE('',#138,#137,#71,.T.);
#168=EDGE_CURVE('',#136,#138,#72,.T.);
#169=EDGE_CURVE('',#132,#137,#73,.T.);
#170=EDGE_CURVE('',#138,#134,#74,.T.);
#171=EDGE_CURVE('',#139,#140,#75,.T.);
#172=EDGE_CURVE('',#141,#139,#76,.T.);
#173=EDGE_CURVE('',#142,#141,#77,.T.);
#174=EDGE_CURVE('',#140,#142,#78,.T.);
#175=EDGE_CURVE('',#143,#144,#79,.T.);
#176=EDGE_CURVE('',#140,#143,#80,.T.);
#177=EDGE_CURVE('',#144,#142,#81,.T.);
#178=EDGE_CURVE('',#144,#145,#82,.T.);
#179=EDGE_CURVE('',#145,#141,#83,.T.);
#180=EDGE_CURVE('',#145,#146,#84,.T.);
#181=EDGE_CURVE('',#146,#139,#85,.T.);
#182=EDGE_CURVE('',#146,#143,#86,.T.);
#183=ORIENTED_EDGE('',*,*,#147,.F.);
#184=ORIENTED_EDGE('',*,*,#148,.T.);
#185=ORIENTED_EDGE('',*,*,#149,.T.);
#186=ORIENTED_EDGE('',*,*,#150,.F.);
#187=ORIENTED_EDGE('',*,*,#151,.F.);
#188=ORIENTED_EDGE('',*,*,#152,.F.);
#189=ORIENTED_EDGE('',*,*,#153,.T.);
#190=ORIENTED_EDGE('',*,*,#148,.F.);
#191=ORIENTED_EDGE('',*,*,#154,.F.);
#192=ORIENTED_EDGE('',*,*,#155,.F.);
#193=ORIENTED_EDGE('',*,*,#149,.F.);
#194=ORIENTED_EDGE('',*,*,#153,.F.);
#195=ORIENTED_EDGE('',*,*,#156,.F.);
#196=ORIENTED_EDGE('',*,*,#150,.T.);
#197=ORIENTED_EDGE('',*,*,#155,.T.);
#198=ORIENTED_EDGE('',*,*,#157,.F.);
#199=ORIENTED_EDGE('',*,*,#158,.F.);
#200=ORIENTED_EDGE('',*,*,#157,.T.);
#201=ORIENTED_EDGE('',*,*,#154,.T.);
#202=ORIENTED_EDGE('',*,*,#152,.T.);
#203=ORIENTED_EDGE('',*,*,#159,.F.);
#204=ORIENTED_EDGE('',*,*,#160,.T.);
#205=ORIENTED_EDGE('',*,*,#161,.F.);
#206=ORIENTED_EDGE('',*,*,#162,.T.);
#207=ORIENTED_EDGE('',*,*,#163,.F.);
#208=ORIENTED_EDGE('',*,*,#164,.F.);
#209=ORIENTED_EDGE('',*,*,#165,.F.);
#210=ORIENTED_EDGE('',*,*,#160,.F.);
#211=ORIENTED_EDGE('',*,*,#166,.F.);
#212=ORIENTED_EDGE('',*,*,#167,.F.);
#213=ORIENTED_EDGE('',*,*,#168,.F.);
#214=ORIENTED_EDGE('',*,*,#164,.T.);
#215=ORIENTED_EDGE('',*,*,#169,.F.);
#216=ORIENTED_EDGE('',*,*,#162,.F.);
#217=ORIENTED_EDGE('',*,*,#170,.F.);
#218=ORIENTED_EDGE('',*,*,#167,.T.);
#219=ORIENTED_EDGE('',*,*,#165,.T.);
#220=ORIENTED_EDGE('',*,*,#168,.T.);
#221=ORIENTED_EDGE('',*,*,#170,.T.);
#222=ORIENTED_EDGE('',*,*,#161,.T.);
#223=ORIENTED_EDGE('',*,*,#171,.F.);
#224=ORIENTED_EDGE('',*,*,#172,.F.);
#225=ORIENTED_EDGE('',*,*,#173,.F.);
#226=ORIENTED_EDGE('',*,*,#174,.F.);
#227=ORIENTED_EDGE('',*,*,#151,.T.);
#228=ORIENTED_EDGE('',*,*,#147,.T.);
#229=ORIENTED_EDGE('',*,*,#156,.T.);
#230=ORIENTED_EDGE('',*,*,#158,.T.);
#231=ORIENTED_EDGE('',*,*,#175,.F.);
#232=ORIENTED_EDGE('',*,*,#176,.F.);
#233=ORIENTED_EDGE('',*,*,#174,.T.);
#234=ORIENTED_EDGE('',*,*,#177,.F.);
#235=ORIENTED_EDGE('',*,*,#178,.F.);
#236=ORIENTED_EDGE('',*,*,#177,.T.);
#237=ORIENTED_EDGE('',*,*,#173,.T.);
#238=ORIENTED_EDGE('',*,*,#179,.F.);
#239=ORIENTED_EDGE('',*,*,#180,.F.);
#240=ORIENTED_EDGE('',*,*,#179,.T.);
#241=ORIENTED_EDGE('',*,*,#172,.T.);
#242=ORIENTED_EDGE('',*,*,#181,.F.);
#243=ORIENTED_EDGE('',*,*,#182,.F.);
#244=ORIENTED_EDGE('',*,*,#181,.T.);
#245=ORIENTED_EDGE('',*,*,#171,.T.);
#246=ORIENTED_EDGE('',*,*,#176,.T.);
#247=ORIENTED_EDGE('',*,*,#175,.T.);
#248=ORIENTED_EDGE('',*,*,#178,.T.);
#249=ORIENTED_EDGE('',*,*,#180,.T.);
#250=ORIENTED_EDGE('',*,*,#182,.T.);
#251=ORIENTED_EDGE('',*,*,#163,.T.);
#252=ORIENTED_EDGE('',*,*,#159,.T.);
#253=ORIENTED_EDGE('',*,*,#169,.T.);
#254=ORIENTED_EDGE('',*,*,#166,.T.);
#255=PLANE('',#310);
#256=PLANE('',#311);
#257=PLANE('',#312);
#258=PLANE('',#313);
#259=PLANE('',#314);
#260=PLANE('',#315);
#261=PLANE('',#316);
#262=PLANE('',#317);
#263=PLANE('',#318);
#264=PLANE('',#319);
#265=PLANE('',#320);
#266=PLANE('',#321);
#267=PLANE('',#322);
#268=PLANE('',#323);
#269=PLANE('',#324);
#270=PLANE('',#325);
#271=ADVANCED_FACE('',(#17),#255,.T.);
#272=ADVANCED_FACE('',(#18),#256,.F.);
#273=ADVANCED_FACE('',(#19),#257,.T.);
#274=ADVANCED_FACE('',(#20),#258,.T.);
#275=ADVANCED_FACE('',(#21),#259,.F.);
#276=ADVANCED_FACE('',(#22),#260,.F.);
#277=ADVANCED_FACE('',(#23),#261,.F.);
#278=ADVANCED_FACE('',(#24),#262,.T.);
#279=ADVANCED_FACE('',(#25),#263,.T.);
#280=ADVANCED_FACE('',(#26),#264,.F.);
#281=ADVANCED_FACE('',(#27,#15),#265,.T.);
#282=ADVANCED_FACE('',(#28),#266,.F.);
#283=ADVANCED_FACE('',(#29),#267,.T.);
#284=ADVANCED_FACE('',(#30),#268,.T.);
#285=ADVANCED_FACE('',(#31),#269,.F.);
#286=ADVANCED_FACE('',(#32,#16),#270,.F.);
#287=CLOSED_SHELL('',(#271,#272,#273,#274,#275,#276,#277,#278,#279,#280,
#281,#282,#283,#284,#285,#286));
#288=DERIVED_UNIT_ELEMENT(#291,1.);
#289=DERIVED_UNIT_ELEMENT(#478,-3.);
#290=DIMENSIONAL_EXPONENTS(0.,1.,0.,0.,0.,0.,0.);
#291=(
CONVERSION_BASED_UNIT('gram',#293)
MASS_UNIT()
NAMED_UNIT(#290)
);
#292=(
MASS_UNIT()
NAMED_UNIT(*)
SI_UNIT(.KILO.,.GRAM.)
);
#293=MASS_MEASURE_WITH_UNIT(MASS_MEASURE(0.001),#292);
#294=DERIVED_UNIT((#288,#289));
#295=MEASURE_REPRESENTATION_ITEM('density measure',
POSITIVE_RATIO_MEASURE(0.),#294);
#296=PROPERTY_DEFINITION_REPRESENTATION(#301,#298);
#297=PROPERTY_DEFINITION_REPRESENTATION(#302,#299);
#298=REPRESENTATION('material name',(#300),#475);
#299=REPRESENTATION('density',(#295),#475);
#300=DESCRIPTIVE_REPRESENTATION_ITEM('ACC.TECHN. INFO',
'ACC.TECHN. INFO');
#301=PROPERTY_DEFINITION('material property','material name',#485);
#302=PROPERTY_DEFINITION('material property','density of part',#485);
#303=DATE_TIME_ROLE('creation_date');
#304=APPLIED_DATE_AND_TIME_ASSIGNMENT(#305,#303,(#485));
#305=DATE_AND_TIME(#306,#307);
#306=CALENDAR_DATE(2023,28,9);
#307=LOCAL_TIME(0,0,0.,#308);
#308=COORDINATED_UNIVERSAL_TIME_OFFSET(0,0,.BEHIND.);
#309=AXIS2_PLACEMENT_3D('placement',#396,#326,#327);
#310=AXIS2_PLACEMENT_3D('',#397,#328,#329);
#311=AXIS2_PLACEMENT_3D('',#406,#334,#335);
#312=AXIS2_PLACEMENT_3D('',#412,#339,#340);
#313=AXIS2_PLACEMENT_3D('',#416,#343,#344);
#314=AXIS2_PLACEMENT_3D('',#420,#347,#348);
#315=AXIS2_PLACEMENT_3D('',#422,#350,#351);
#316=AXIS2_PLACEMENT_3D('',#431,#356,#357);
#317=AXIS2_PLACEMENT_3D('',#437,#361,#362);
#318=AXIS2_PLACEMENT_3D('',#443,#366,#367);
#319=AXIS2_PLACEMENT_3D('',#446,#370,#371);
#320=AXIS2_PLACEMENT_3D('',#447,#372,#373);
#321=AXIS2_PLACEMENT_3D('',#456,#378,#379);
#322=AXIS2_PLACEMENT_3D('',#462,#383,#384);
#323=AXIS2_PLACEMENT_3D('',#466,#387,#388);
#324=AXIS2_PLACEMENT_3D('',#470,#391,#392);
#325=AXIS2_PLACEMENT_3D('',#472,#394,#395);
#326=DIRECTION('axis',(0.,0.,1.));
#327=DIRECTION('refdir',(1.,0.,0.));
#328=DIRECTION('center_axis',(0.,1.,0.));
#329=DIRECTION('ref_axis',(0.,0.,1.));
#330=DIRECTION('',(1.,0.,0.));
#331=DIRECTION('',(0.,0.,1.));
#332=DIRECTION('',(1.,0.,0.));
#333=DIRECTION('',(0.,0.,1.));
#334=DIRECTION('center_axis',(1.,0.,0.));
#335=DIRECTION('ref_axis',(0.,0.,-1.));
#336=DIRECTION('',(0.,1.,0.));
#337=DIRECTION('',(0.,0.,-1.));
#338=DIRECTION('',(0.,1.,0.));
#339=DIRECTION('center_axis',(0.,0.,1.));
#340=DIRECTION('ref_axis',(1.,0.,0.));
#341=DIRECTION('',(-1.,0.,0.));
#342=DIRECTION('',(0.,-1.,0.));
#343=DIRECTION('center_axis',(1.,0.,0.));
#344=DIRECTION('ref_axis',(0.,0.,-1.));
#345=DIRECTION('',(0.,-1.,0.));
#346=DIRECTION('',(0.,0.,1.));
#347=DIRECTION('center_axis',(0.,1.,0.));
#348=DIRECTION('ref_axis',(0.,0.,1.));
#349=DIRECTION('',(-1.,0.,0.));
#350=DIRECTION('center_axis',(0.,1.,0.));
#351=DIRECTION('ref_axis',(0.,0.,1.));
#352=DIRECTION('',(1.,0.,0.));
#353=DIRECTION('',(0.,0.,-1.));
#354=DIRECTION('',(-1.,0.,0.));
#355=DIRECTION('',(0.,0.,1.));
#356=DIRECTION('center_axis',(1.,0.,0.));
#357=DIRECTION('ref_axis',(0.,0.,-1.));
#358=DIRECTION('',(0.,-1.,0.));
#359=DIRECTION('',(0.,0.,1.));
#360=DIRECTION('',(0.,1.,0.));
#361=DIRECTION('center_axis',(0.,1.,0.));
#362=DIRECTION('ref_axis',(0.,0.,1.));
#363=DIRECTION('',(-1.,0.,0.));
#364=DIRECTION('',(0.,0.,1.));
#365=DIRECTION('',(1.,0.,0.));
#366=DIRECTION('center_axis',(1.,0.,0.));
#367=DIRECTION('ref_axis',(0.,0.,-1.));
#368=DIRECTION('',(0.,1.,0.));
#369=DIRECTION('',(0.,-1.,0.));
#370=DIRECTION('center_axis',(0.,0.,1.));
#371=DIRECTION('ref_axis',(1.,0.,0.));
#372=DIRECTION('center_axis',(0.,0.,1.));
#373=DIRECTION('ref_axis',(1.,0.,0.));
#374=DIRECTION('',(-1.,0.,0.));
#375=DIRECTION('',(0.,-1.,0.));
#376=DIRECTION('',(1.,0.,0.));
#377=DIRECTION('',(0.,1.,0.));
#378=DIRECTION('center_axis',(1.,0.,0.));
#379=DIRECTION('ref_axis',(0.,0.,-1.));
#380=DIRECTION('',(0.,1.,0.));
#381=DIRECTION('',(0.,0.,-1.));
#382=DIRECTION('',(0.,0.,1.));
#383=DIRECTION('center_axis',(0.,1.,0.));
#384=DIRECTION('ref_axis',(0.,0.,1.));
#385=DIRECTION('',(1.,0.,0.));
#386=DIRECTION('',(0.,0.,1.));
#387=DIRECTION('center_axis',(1.,0.,0.));
#388=DIRECTION('ref_axis',(0.,0.,-1.));
#389=DIRECTION('',(0.,-1.,0.));
#390=DIRECTION('',(0.,0.,1.));
#391=DIRECTION('center_axis',(0.,1.,0.));
#392=DIRECTION('ref_axis',(0.,0.,1.));
#393=DIRECTION('',(-1.,0.,0.));
#394=DIRECTION('center_axis',(0.,0.,1.));
#395=DIRECTION('ref_axis',(1.,0.,0.));
#396=CARTESIAN_POINT('',(0.,0.,0.));
#397=CARTESIAN_POINT('Origin',(4.57966997657877E-17,582.,-0.389130118467751));
#398=CARTESIAN_POINT('',(-1.65,582.,-0.389130118467626));
#399=CARTESIAN_POINT('',(1.65,582.,-0.389130118467626));
#400=CARTESIAN_POINT('',(-1.87350135405504E-17,582.,-0.389130118467626));
#401=CARTESIAN_POINT('',(-1.65,582.,0.11086988153225));
#402=CARTESIAN_POINT('',(-1.65,582.,-0.889130118467751));
#403=CARTESIAN_POINT('',(1.65,582.,0.11086988153225));
#404=CARTESIAN_POINT('',(-1.65,582.,0.11086988153225));
#405=CARTESIAN_POINT('',(1.65,582.,-0.889130118467751));
#406=CARTESIAN_POINT('Origin',(-1.65,1.6153745008296E-14,-0.389130118467751));
#407=CARTESIAN_POINT('',(-1.65,-582.,-0.389130118467626));
#408=CARTESIAN_POINT('',(-1.65,1.19626530903361E-14,-0.389130118467626));
#409=CARTESIAN_POINT('',(-1.65,-582.,0.11086988153225));
#410=CARTESIAN_POINT('',(-1.65,-582.,0.11086988153225));
#411=CARTESIAN_POINT('',(-1.65,-582.,0.11086988153225));
#412=CARTESIAN_POINT('Origin',(-4.57966997657877E-17,7.34261136740728E-15,
0.11086988153225));
#413=CARTESIAN_POINT('',(1.65,-582.,0.11086988153225));
#414=CARTESIAN_POINT('',(1.65,-582.,0.11086988153225));
#415=CARTESIAN_POINT('',(1.65,582.,0.11086988153225));
#416=CARTESIAN_POINT('Origin',(1.65,-1.6153745008296E-14,-0.389130118467751));
#417=CARTESIAN_POINT('',(1.65,-582.,-0.389130118467626));
#418=CARTESIAN_POINT('',(1.65,-4.19109191795996E-15,-0.389130118467626));
#419=CARTESIAN_POINT('',(1.65,-582.,-0.889130118467751));
#420=CARTESIAN_POINT('Origin',(-4.57966997657877E-17,-582.,-0.389130118467751));
#421=CARTESIAN_POINT('',(-6.45317133063381E-17,-582.,-0.389130118467626));
#422=CARTESIAN_POINT('Origin',(-5.55111512312602E-17,-596.5,-79.3891301184677));
#423=CARTESIAN_POINT('',(-2.00000000000009,-596.5,-79.3891301184676));
#424=CARTESIAN_POINT('',(2.00000000000009,-596.5,-79.3891301184676));
#425=CARTESIAN_POINT('',(-8.83131951406453E-18,-596.5,-79.3891301184676));
#426=CARTESIAN_POINT('',(-2.00000000000009,-596.5,-79.8891301184677));
#427=CARTESIAN_POINT('',(-2.00000000000009,-596.5,-78.8891301184677));
#428=CARTESIAN_POINT('',(2.00000000000009,-596.5,-79.8891301184677));
#429=CARTESIAN_POINT('',(2.00000000000009,-596.5,-79.8891301184677));
#430=CARTESIAN_POINT('',(2.00000000000009,-596.5,-79.8891301184677));
#431=CARTESIAN_POINT('Origin',(-2.00000000000009,1.65562008547226E-14,-79.3891301184677));
#432=CARTESIAN_POINT('',(-2.00000000000009,596.5,-79.3891301184676));
#433=CARTESIAN_POINT('',(-2.00000000000009,-2.70616862252383E-16,-79.3891301184676));
#434=CARTESIAN_POINT('',(-2.00000000000009,596.5,-79.8891301184677));
#435=CARTESIAN_POINT('',(-2.00000000000009,596.5,-79.8891301184677));
#436=CARTESIAN_POINT('',(-2.00000000000009,-596.5,-79.8891301184677));
#437=CARTESIAN_POINT('Origin',(5.55111512312602E-17,596.5,-79.3891301184677));
#438=CARTESIAN_POINT('',(2.00000000000009,596.5,-79.3891301184676));
#439=CARTESIAN_POINT('',(4.66798317171957E-17,596.5,-79.3891301184676));
#440=CARTESIAN_POINT('',(2.00000000000009,596.5,-79.8891301184677));
#441=CARTESIAN_POINT('',(2.00000000000009,596.5,-79.8891301184677));
#442=CARTESIAN_POINT('',(-2.00000000000009,596.5,-79.8891301184677));
#443=CARTESIAN_POINT('Origin',(2.00000000000009,-1.65562008547226E-14,-79.3891301184677));
#444=CARTESIAN_POINT('',(2.00000000000009,-1.6826817716975E-14,-79.3891301184676));
#445=CARTESIAN_POINT('',(2.00000000000009,596.5,-79.8891301184677));
#446=CARTESIAN_POINT('Origin',(2.52323414687546E-17,-1.65562008547226E-14,
-79.8891301184677));
#447=CARTESIAN_POINT('Origin',(-8.32667268468885E-17,7.7715611723761E-15,
-0.389130118467626));
#448=CARTESIAN_POINT('',(3.00000000000006,-616.,-0.389130118467626));
#449=CARTESIAN_POINT('',(-3.00000000000006,-616.,-0.389130118467626));
#450=CARTESIAN_POINT('',(3.00000000000006,-616.,-0.389130118467626));
#451=CARTESIAN_POINT('',(3.00000000000006,616.,-0.389130118467626));
#452=CARTESIAN_POINT('',(3.00000000000006,616.,-0.389130118467626));
#453=CARTESIAN_POINT('',(-3.00000000000006,616.,-0.389130118467626));
#454=CARTESIAN_POINT('',(-3.00000000000006,616.,-0.389130118467626));
#455=CARTESIAN_POINT('',(-3.00000000000006,-616.,-0.389130118467626));
#456=CARTESIAN_POINT('Origin',(-3.00000000000006,1.70974345792274E-14,-39.8891301184676));
#457=CARTESIAN_POINT('',(-3.00000000000006,-616.,-79.3891301184676));
#458=CARTESIAN_POINT('',(-3.00000000000006,616.,-79.3891301184676));
#459=CARTESIAN_POINT('',(-3.00000000000006,-616.,-79.3891301184676));
#460=CARTESIAN_POINT('',(-3.00000000000006,-616.,-0.389130118467626));
#461=CARTESIAN_POINT('',(-3.00000000000006,616.,-79.3891301184676));
#462=CARTESIAN_POINT('Origin',(8.32667268468885E-17,616.,-39.8891301184676));
#463=CARTESIAN_POINT('',(3.00000000000006,616.,-79.3891301184676));
#464=CARTESIAN_POINT('',(-3.00000000000006,616.,-79.3891301184676));
#465=CARTESIAN_POINT('',(3.00000000000006,616.,-79.3891301184676));
#466=CARTESIAN_POINT('Origin',(3.00000000000006,-1.70974345792274E-14,-39.8891301184676));
#467=CARTESIAN_POINT('',(3.00000000000006,-616.,-79.3891301184676));
#468=CARTESIAN_POINT('',(3.00000000000006,616.,-79.3891301184676));
#469=CARTESIAN_POINT('',(3.00000000000006,-616.,-79.3891301184676));
#470=CARTESIAN_POINT('Origin',(-8.32667268468885E-17,-616.,-39.8891301184676));
#471=CARTESIAN_POINT('',(3.00000000000006,-616.,-79.3891301184676));
#472=CARTESIAN_POINT('Origin',(3.78485122031311E-17,-1.70974345792274E-14,
-79.3891301184676));
#473=UNCERTAINTY_MEASURE_WITH_UNIT(LENGTH_MEASURE(0.01),#477,
'DISTANCE_ACCURACY_VALUE',
'Maximum model space distance between geometric entities at asserted c
onnectivities');
#474=UNCERTAINTY_MEASURE_WITH_UNIT(LENGTH_MEASURE(0.01),#477,
'DISTANCE_ACCURACY_VALUE',
'Maximum model space distance between geometric entities at asserted c
onnectivities');
#475=(
GEOMETRIC_REPRESENTATION_CONTEXT(3)
GLOBAL_UNCERTAINTY_ASSIGNED_CONTEXT((#473))
GLOBAL_UNIT_ASSIGNED_CONTEXT((#477,#479,#480))
REPRESENTATION_CONTEXT('','3D')
);
#476=(
GEOMETRIC_REPRESENTATION_CONTEXT(3)
GLOBAL_UNCERTAINTY_ASSIGNED_CONTEXT((#474))
GLOBAL_UNIT_ASSIGNED_CONTEXT((#477,#479,#480))
REPRESENTATION_CONTEXT('','3D')
);
#477=(
LENGTH_UNIT()
NAMED_UNIT(*)
SI_UNIT(.MILLI.,.METRE.)
);
#478=(
LENGTH_UNIT()
NAMED_UNIT(*)
SI_UNIT(.CENTI.,.METRE.)
);
#479=(
NAMED_UNIT(*)
PLANE_ANGLE_UNIT()
SI_UNIT($,.RADIAN.)
);
#480=(
NAMED_UNIT(*)
SI_UNIT($,.STERADIAN.)
SOLID_ANGLE_UNIT()
);
#481=SHAPE_DEFINITION_REPRESENTATION(#482,#483);
#482=PRODUCT_DEFINITION_SHAPE('',$,#485);
#483=SHAPE_REPRESENTATION('',(#309),#475);
#484=PRODUCT_DEFINITION_CONTEXT('part definition',#489,'design');
#485=PRODUCT_DEFINITION('ENG000031256','ENG000031256',#486,#484);
#486=PRODUCT_DEFINITION_FORMATION('',$,#491);
#487=PRODUCT_RELATED_PRODUCT_CATEGORY('ENG000031256','ENG000031256',(#491));
#488=APPLICATION_PROTOCOL_DEFINITION('international standard',
'automotive_design',2009,#489);
#489=APPLICATION_CONTEXT(
'Core Data for Automotive Mechanical Design Process');
#490=PRODUCT_CONTEXT('part definition',#489,'mechanical');
#491=PRODUCT('ENG000031256','ENG000031256','SIMPLE',(#490));
#492=PRESENTATION_STYLE_ASSIGNMENT((#493));
#493=SURFACE_STYLE_USAGE(.BOTH.,#496);
#494=SURFACE_STYLE_RENDERING_WITH_PROPERTIES($,#500,(#495));
#495=SURFACE_STYLE_TRANSPARENT(0.);
#496=SURFACE_SIDE_STYLE('',(#497,#494));
#497=SURFACE_STYLE_FILL_AREA(#498);
#498=FILL_AREA_STYLE('',(#499));
#499=FILL_AREA_STYLE_COLOUR('',#500);
#500=COLOUR_RGB('',1.,1.,0.);
ENDSEC;
END-ISO-10303-21;
